Sweet Home Chicago - Blues Brothers - Assolo?

Chi mi può consigliare un micro assolo da fare sulla base di Sweet Home Chicago dei Blues Brothers?!? E' la canzone che usiamo come conclusione dei concerti che faccio con il mio gruppo dove ognuno fa un pezzettino di assolo!!

Grazie

NON mi serve l' intro ke so già fare!!

1 risposta

Classificazione
  • 1 decennio fa
    Risposta preferita

    Essendo un blues in Mi, imposta dei licks sulla scala E blues:

    mi sol la la# si re

    ecco alcune diteggiature di riferimento per questa scala

    primo settore, a due ottave

    ----------------------------------0-3

    -----------------------------0-3-----

    ---------------------0-2-3----------

    --------------0-2--------------------

    ------0-1-2-------------------------

    -0-3---------------------------------

    primo/secondo settore, a un ottava estesa

    --------------------3-5

    --------------3-5-----

    ------2-3-4----------

    -2-5------------------

    ------------------------

    ------------------------

    quarto/quinto settore, a due ottave

    --------------------------------------- 10-12

    -----------------------8-10-11-12- -------

    -----------------7-9------------------ -------

    --------7-8-9------------------------ -------

    -7-10-------------------------------- -------

    --------------------------------------- -------

    per risalire dalle diteggiature di riferimento ai licks impara a imitare frasi collaudate e a combinarle insime.

    esempio:

    essendo il blues in 12 battute impostato metricamente sulle terzine di crome, prova a pronunciare la seguente frase:

    T1__T2__T3__T4__

    -----------------------3---

    ----3---3--3--5---------5

    --4--4---4----------------

    ------------------------------

    ------------------------------

    ------------------------------

    dove T1, T2, T3 e T4 rappresentano le quattro terzine di crome di una battuta in 12/8:

    Su T1 pronunci la terzina 4-3-4

    Su T2 la terzina 3-4-4

    Su T3 la terzina non è pronunciata, ma viene tenuta lunga la nota 5 (magari con un bel vibrato espressivo)

    Su T4 la terzina è pronunciata in shuffle (lunga-breve: 3-5)

Altre domande? Fai una domanda e ottieni le risposte che cerchi.