note super mario world theme??? D:?

Salve a tutti :D U.U

sto cercando ormai da tre giorni per il web le note per piano e chitarra di super mario world theme..

ma non le trovo da nessuna parte!

aiutatemi pls!!!

grazie in anticipo :) ciao!

1 risposta

Classificazione
  • FlavYX
    Lv 4
    9 anni fa
    Risposta preferita

    S S E S S E E Q E E E E E E Q.

    E||--------------------8----8--|--7----------------------||

    B||----------------------------|-----3--3--3--3----------||

    G||*--5-7-5--5-7-5--5----------|--------------3--4------*||

    D||*----------------6----------|------------------------*||

    A||----------6-----------------|--------5----------------||

    E||---4---------------------4--|--3----------------------||

    E E E E E E Q E E E E E E Q E E E E E E E E

    -------------------------|-------------------------|-----------------------8--|

    --6--4--4--6--4--4--6----|--5--3--3--5--3--3--5----|--6--4--4--6--4--4--6-----|

    --3--------3--------3----|--2--------2--------2----|--3--------3--------3-----|

    --4--------4--------4----|--3--------3--------3----|--4--------4--------4-----|

    -------------------------|-------------------------|--------------------------|

    -------------------------|-------------------------|--------------------------|

    E H. E T T T T T T T T T T T T T T T T T T S E Q

    -----7---------------|------------------------------------------------|

    ---------------------|------------------------------------------------|

    ---------------------|------------------------------------------------|

    --7------------------|------------------------------------------------|

    --8------------------|------------------------------------------------|

    ---------------------|------------------------------------------------|

    Q E E Q Q Q E E H E. S E E Q Q

    --5----------5---------|------------10-------------||-------------------------|

    --6----6-----5----5----|---8----10------<>8--------||---5---5-5-----5---------|

    --7-------7--3----3----|---9-----------------------||*--5---5-5-----5---------|

    -------------5----5----|--10-----------------------||*-----------5-------5----|

    -------------3---------|---8-----------------------||---3---------------------|

    -----------------------|---------------------------||-------------------------|

    E E E E Q Q E. S E E Q Q E E E E Q Q

    -----------3--5----3----|------------------------|-----------5--7----5----|

    -----------5--6----5----|--6---6-6-----6---------|-----------6--8----6----|

    --5--5--5---------------|--7---7-7-----7---------|--7--7--7---------------|

    ------------------------|-----------7-------7----|--0--0--0----------0----|

    --3--3--3----------3----|--5---------------------|------------------------|

    ------------------------|------------------------|------------------------|

    E. S E E Q Q E E E E H E. S S. S S. Q Q

    --0---0-0-----0---------|------------------------||---------------------------|

    ------------------------|--5--4--3--2------------||---------0----0------------|

    --5---5-5-----5---------|--5--4--3--2--5--------*||*------0----2---------2----|

    -----------5-------5----|--------------6--------*||*--------------------------|

    --3---------------------|--3--2--1--0------------||---3-----3-------0----0----|

    ------------------------|--------------4---------||---------------------------|

    E. S S. S S. Q Q E. S S. S S. Q Q E. E E. Q Q

    --------------------------|--------------------------|-----------------------|

    --------1--0-1-------0----|--------0----0------------|--1--------------------|

    ------2-------------------|------0----2---------2----|--2---2----------------|

    --0-----0-----------------|--------------------------|--0------3---2----0----|

    --------------------------|--3-----3-------0----0----|-----------------------|

    ----------------3----3----|--------------------------|-------------3---------|

Altre domande? Fai una domanda e ottieni le risposte che cerchi.